Lietuviškų dainų žodžiai ir akordai vienoje vietoje.

Jūra akordai gitarai

Dr.green dainos "Jūra" gitaros akordai
3613
Atgal į atlikėjo kūrinius ↩

intro:
e----------------------------------------------------------------------------
B----------------------------------------------------------------------------
G----------------------------------------------------------------------------
D------5---5-5-4-3-2-----5---5-------------5---5-5-4-3-2-----5---5--7-6-5-4--
A-----4---4-------------4---4-------------4---4-------------4---4------------
E---5----5------------5----5---5-4-3-2--5----5------------5----5-------------

posmai:  E--A-B

priedainis: C--G-A



E                 A     B
įkaitusiu asfaltu kojos žingsniuoja, 
kojos žingsniuoja. mano kojos
o su jom ir aš einu, nes kitaip negalėčiau, 
juk turiu aiškų tikslą, dabar link jo artėju
kaip nekeista, bet man nežinomas atstumas, 
o čia dar dangaus šviesulių įtarumas
saulė be gailesčio mane prižiūri, 
kol aš einu į priekį, o priekyje - jūra!

C     G       A
jūra, mintyse kartoju
jūra, ir niekur nesustoju
jūra, mane vilioja
ir suviliotas aš vos kilnoju kojas

e--------------------
B--------------------
G--------------------
D--------------4---6-
A---7-6-------4---6--
E-------9-7--5---7---

E               A               B
saulės dėka marškiniai prie kūno limpa 
ir ištikimas šešėlis dingo
kelias, karštis ir mintys be vėjo 
pakyla prieš akis ir susilieja
į kopas, taip jos priekyje matyti, 
vargu, ar kas galėtų mane sustabdyti
vos susilaikiau nenusivilkęs marškinių, 
kodėl aš tai darau? juk ne maudytis einu

C            G        A
prie jūros, ji už kopų turi būti
prie jūros, o saulė vis dar žiūri
prie jūros, bet neatsigert lig soties
ko tada? kad aš žinočiau

[pragrojimas (E--A-B)]

E      A     B
laimei kopos realios, 
smėlis keičia asfaltuotą kelią
keičiasi ir mano ėjimo greitis, 
saulės akylumas nesikeičia
gerai, kad nebedaug eiti beliko - 
apalpti dabar būtų kvailiausias dalykas
tik pradžiuginčiau saulę, kurgi ne, 
bet aš laimėjau ir prieš mane

C     G        A
jūra, kiek akys mato
jūra, batus numetęs
jūra, bangos po kojom
nieko tokio aš kelnes atsiraitojau

Akordų paieška: