Lietuviškų dainų žodžiai ir akordai vienoje vietoje.

Boogaloo akordai gitarai

Inculto dainos "Boogaloo" gitaros akordai
3888
Atgal į atlikėjo kūrinius ↩


      
       C        Ab      F      G
e  |---8--------6-------5------7---|
B  |---8--------6-------6------8---|
G  |---9--------7-------5------7---|
D  |--10--------9-------7------9---|
A  |--10--------9-------8------10--|
E  |---8--------7-------5------7---|



INCULTO PAVARO
C          Ab   F           G                   C                 
Kaip ji soka, oi  kaip moka pakratyt  uzpakaliuka
E galetu sustabdyt , kaip ten kas ten
Uhh turetu tai uždraust ne as jauciu kad
Kazkas mane nubaus.......

MAZDAUG TAIP akordai virs zodziu biski netaisingai sudeti
bet atsirinksit.:)



Visa daina aina ant situ akordu tereik atsirinkt ju seka.


GALIMA FirG IMTI KITAIP JEIGU LENGVIAU


        F     G
e |-----13----15-|
B |-----13----15-|
G |-----14----16-|
D |-----15----17-|
A |-----15----17-|
E |-----13----15-|


VALIO grajinkit i sveikata

jei turit komentaru tai parasykit ka nors :)

Akordų paieška: